Advertise on Bikeforums.net



User Tag List

Results 1 to 6 of 6
  1. #1
    WTF is that smell? crackerjab's Avatar
    Join Date
    Dec 2005
    Location
    Charlotte, NC
    Posts
    449
    Mentioned
    0 Post(s)
    Tagged
    0 Thread(s)

    Post your favorite guitar tab...

    ... this is mine for the moment. The wife turned me onto this one an enjoys it when I play.



    The Blower's Daughter

    E
    And so it is
    As
    Just like you said it would be
    Bs
    Life goes easy on me
    As E
    Most of the time
    E
    And so it is
    As
    The shorter story
    Bs
    No love, no glory
    C#m
    No hero in her sky

    A
    I can\'t take my eyes off of you
    G#m
    I can\'t take my eyes off you
    F#m
    I can\'t take my eyes off of you
    E
    I can\'t take my eyes off you
    As Bs
    I can\'t take my eyes off you
    As
    I can\'t take my eyes...As, Bs, E



    E
    And so it is
    E As
    Just like you said it should be
    As Bs
    We'll both forget the breeze
    As E
    Most of the time
    E
    And so it is
    E As
    The colder water
    As Bs
    The blower's daughter
    C#m
    The pupil in denial
    As
    I can't take my eyes off of you
    G#m
    I can't take my eyes off you
    F#m
    I can't take my eyes off of you
    E
    I can't take my eyes off you
    As Bs
    I can't take my eyes off you
    As (slide to Bs)
    I can't take my eyes...


    F#
    Oooooooooohh
    F# B.Lala
    Did I say that I loathe you?
    G#m
    Did I say that I want to
    C# D#m
    Leave it all behind?






    B
    I can\'t take my mind off of you
    A#m
    I can\'t take my mind off you
    G#m
    I can\'t take my mind off of you
    F#
    I can\'t take my mind off you
    B C#
    I can\'t take my mind off you
    B
    I can\'t take my mind...
    B
    My mind...my mind...

    'Til I find somebody new

  2. #2
    :p Harun's Avatar
    Join Date
    Feb 2008
    Location
    bay area
    Posts
    349
    Mentioned
    0 Post(s)
    Tagged
    0 Thread(s)


    Code:
                                      5TH CAPRICCIO
                               As recorded by Jason Becker
                  (From the 2003 Album THE LEGENDARY GUITAR OF (VIDEO))
    
    Music by Pagannini
    Arranged by Jason Becker
    
    Gtr I (E A D G B E) - 'Jason'
    
      Q=160
     4/4
      Gtr I
    |-------------------------------------------------|
    |-------------------------------------------------|
    |----------------------------14-12-10-------------|
    |----10-14p10----12-14-12-10----------14-12-10----|
    |-12----------14-------------------------------14-|
    |-------------------------------------------------|
    
    
    |--------------------------------------------------|
    |--------------------------------------------------|
    |----------------------------14-12-10--------------|
    |----10-14p10----12-14-12-10----------14-12-10-----|
    |-12----------14-------------------------------14--|
    |--------------------------------------------------|
    
    
    |-----------------------------------------------|
    |-----------------------------------------------|
    |-----------------------------------------------|
    |----11-14p11----12-15p12----9-15p9----10-14p10-|
    |-12----------12----------10--------10----------|
    |-----------------------------------------------|
    
    
    |----------------------------------12-16-12-------|
    |-------------------------------12----------------|
    |-------------------14-------13-------------13-13-|
    |-------15p12----------13-14----------------------|
    |-11h14-------15-12-------------------------------|
    |-------------------------------------------------|
    
    
    |----------------------------17-15-13-------------|
    |----13-17-13----15-17-15-13----------17-15-13----|
    |-14----------16-------------------------------16-|
    |-------------------------------------------------|
    |-------------------------------------------------|
    |-------------------------------------------------|
    
    
    |----------------------------17-15-13-------------|
    |----13-17-13----15-17-15-13----------17-15-13----|
    |-14----------16-------------------------------16-|
    |-------------------------------------------------|
    |-------------------------------------------------|
    |-------------------------------------------------|
    
    
    |-------------17-15-13----------19-17-15s13-------|
    |----14-17p14----------17-13s15-------------17-15-|
    |-14----------------------------------------------|
    |-------------------------------------------------|
    |-------------------------------------------------|
    |-------------------------------------------------|
    
    
     2/4                 4/4
    |-------------------|---------------------------------------------|
    |-13s12-------------|----13----------12----------10--------8------|
    |-------14-12-11-12-|-------12----------10----------9--------7----|
    |-------------------|-14-------14-12-------12-10------10-9-----9--|
    |-------------------|---------------------------------------------|
    |-------------------|---------------------------------------------|
    
    
    |--------------------------------|
    |---6-------6-------6--------8---|
    |-----5-------5-------4--------9-|
    |-7-----7-6-----6-5-----5-10-----|
    |--------------------------------|
    |--------------------------------|
    
    
                                                       2/4
    |----------10----------12----------13-------------|---------------------------|
    |----12----------13----------13----------16-------|----20p17-------18---------|
    |-------10----------12----------14----------17----|----------17-------19------|
    |-12----------14----------15----------16-------19-|-17----------17-------21---|
    |-------------------------------------------------|---------------------------|
    |-------------------------------------------------|---------------------------|
    
    
     4/4
    |----20-19-17----------------19-17----------------|
    |-------------20-18-17-18-18-------20-19-17-------|
    |-17----------------------------------------20-16-|
    |-------------------------------------------------|
    |-------------------------------------------------|
    |-------------------------------------------------|
    
    
    |----17-15-------------------15-13-----------------|
    |-17-------18-17-15-------15-------17-15-13--------|
    |-------------------18-14-------------------16-14--|
    |--------------------------------------------------|
    |--------------------------------------------------|
    |--------------------------------------------------|
    
    
    |----------------14-17-20-20p15-------------------------------|
    |-------------16----------------17----------------------------|
    |-12----14h17----------------------17----------------17-------|
    |----16-------------------------------17p14----14h17----17p14-|
    |-------------------------------------------15----------------|
    |-------------------------------------------------------------|
    
    
    |-15p10-------------------------------20-19-18-17-16-------|
    |-------12-------------------------------------------20-19-|
    |----------12--------------12------------------------------|
    |-------------12p9----9h12----12p9-10----------------------|
    |------------------10--------------------------------------|
    |----------------------------------------------------------|
    
    
    |-------------------------------------------------|
    |-18-17-16----------------------------------------|
    |----------19-18-17-16-15-------------------------|
    |-------------------------19-18-17-16-15----------|
    |----------------------------------------19-18-17-|
    |-------------------------------------------------|
    
    
    |------------------------------------------------|
    |------------------------------------------------|
    |-------14-12---------------------------12-10----|
    |----14----------17-15-12-10-14-------9-------12-|
    |-15----------14----------------10-15------------|
    |------------------------------------------------|
    
    
    |------------------------------------------------|
    |------------------------------------------------|
    |---------------12-10----------------------------|
    |-10-14-------9-------12-10-14-12-10----15-12----|
    |-------10-15------------------------14-------14-|
    |------------------------------------------------|
    
    
    |-------------------------------------------------|
    |-------------------------------------------------|
    |----------------------------12----------12-------|
    |----------------12-------------14----------14----|
    |-12-15-14-12-11----14-11-15-------15-13-------13-|
    |-------------------------------------------------|
    
    
    |------------------------------------------------|
    |---------------------------18----------17-------|
    |----10----------9-------------17----------18----|
    |-------10---------10-------------18-17-------17-|
    |-12-------12-10------10-12----------------------|
    |------------------------------------------------|
    
    
    |-------------------------------------------------|
    |----15----------14----------15-------------------|
    |-------14----------12----------14-------16-14----|
    |-15-------15-14-------14-15-------15-13-------13-|
    |-------------------------------------------------|
    |-------------------------------------------------|
    
    
    |----------------------------18----------17-17----|
    |-------------------------------18----------------|
    |----15----------14----------------19-18-------18-|
    |-------15----------13----------------------------|
    |-17-------17-15-------15-17----------------------|
    |-------------------------------------------------|
    
    
    |----15----------14----------15----------13-------|
    |-------15----------13----------15----------15----|
    |-15-------15-14-------14-15-------15-13-------13-|
    |-------------------------------------------------|
    |-------------------------------------------------|
    |-------------------------------------------------|
    
    
    |-------------------------------------------------|
    |----16----------15----------16----------15-------|
    |-------15----------13----------15----------13----|
    |-17-------17-15-------15-17-------17-15-------15-|
    |-------------------------------------------------|
    |-------------------------------------------------|
    
    
    |----20----------19----------20-19-18-17-16-15----|
    |-------20----------18-------------------------19-|
    |----------20-19-------19-17----------------------|
    |-17----------------------------------------------|
    |-------------------------------------------------|
    |-------------------------------------------------|
    
    
    |-------------------------------------------------|
    |-18-17-16-15-14----------------------------------|
    |----------------17-16-15-14-13-12----------------|
    |----------------------------------16-15-14-13-12-|
    |-------------------------------------------------|
    |-------------------------------------------------|
    
    
    |-------------------------------------------------|
    |----------------------------21-20-19-18-17-16----|
    |-------14-12----------------------------------19-|
    |----14----------17-15----------------------------|
    |-15----------14-------17-15----------------------|
    |-------------------------------------------------|
    
    
    |-------------------------------------------------|
    |-------------------------------------------------|
    |-18-17-16-15-14----------------------------------|
    |----------------18-17-16-15-14-13----------------|
    |----------------------------------17-16-15-14-13-|
    |-------------------------------------------------|
    
    
    |------------------------------------------------|
    |------------------------------------------------|
    |-------10-8----------------13-------------------|
    |----10---------13-11----------13-------15-13----|
    |-11---------10-------13-15-------15-12-------15-|
    |------------------------------------------------|
    
    
    |-------------------------------------------------|
    |-------------------------------------------------|
    |----15----------------------17-------------------|
    |-------15-------18-15----------17-------17-15----|
    |-13-------16-14-------17-15-------19-16-------16-|
    |-------------------------------------------------|
    
    
    |----------------------19-16----------------------|
    |----------------17-13-------18-------------------|
    |----------17-12----------------17----------13-15-|
    |----17-14-------------------------18-14-15-------|
    |-14----------------------------------------------|
    |-------------------------------------------------|
    
    
    |----------------------------------------15-16-|
    |-------------------14-------------15-16-------|
    |-------------14-15----15-13-------------------|
    |----------------------------15-11-------------|
    |-18-16-15-13----------------------------------|
    |----------------------------------------------|
    
    
    |-------------------------------------------------|
    |-16----------------------------------------------|
    |----17----12h13p12----------10-13-10----11-13-11-|
    |-------18----------13-11-11----------13----------|
    |-------------------------------------------------|
    |-------------------------------------------------|
    
    
    |-------------------------------------------------|
    |----14-13-11-------------------------------------|
    |-10----------13-11-10-------10-13p10----13-16p13-|
    |----------------------13-11----------11----------|
    |-------------------------------------------------|
    |-------------------------------------------------|
    
    
    |-------------------------------------------------|
    |-------------------------------------------------|
    |----13-16p13----11-15p11----12-15p12----13-15p13-|
    |-12----------13----------13----------15----------|
    |-------------------------------------------------|
    |-------------------------------------------------|
    
    
    |-------------------------------------------------|
    |----16-15-13-------------------------------------|
    |-12----------15-13-12-10----12-15p12----15-18p15-|
    |-------------------------13----------13----------|
    |-------------------------------------------------|
    |-------------------------------------------------|
    
    
    |-------------------------------------------------|
    |----------------------------16----------18-------|
    |----15-18p15----13-17p13-------17----------18p15-|
    |-14----------15----------16-------16-15----------|
    |-------------------------------------------------|
    |-------------------------------------------------|
    
    
    |-------------------------------------------------|
    |----18-------19p16-------------------------------|
    |-------19----------17----21----18----------------|
    |-18-------16----------20----17----16-20----------|
    |----------------------------------------18-16-12-|
    |-------------------------------------------------|
    
    
    |-------------------------------------------------------------|
    |----------------------------------------14p11----------------|
    |----------16----------------16----------------12-------------|
    |----13h16----16p13----13h16----16p13-13----------14p11-------|
    |-14----------------14----------------------------------13p10-|
    |-------------------------------------------------------------|
    
    
    |-------------------------------------------------------------|
    |-------------------------------------------------------------|
    |----------13----------------13----------13-16p13----14-16p14-|
    |----10h13----13p10----10h13----13p10-14----------16----------|
    |-11----------------11----------------------------------------|
    |-------------------------------------------------------------|
    
    
    |-------------------------------------------------|
    |-------17p12----13-17p13----14-18p14----15-19p15-|
    |-13-14-------14----------15----------16----------|
    |-------------------------------------------------|
    |-------------------------------------------------|
    |-------------------------------------------------|
    
    
    |-------------------------------19----------16-19p16-|
    |----16-21p16----17-20p17-16h19----19p16-17----------|
    |-17----------18-------------------------------------|
    |----------------------------------------------------|
    |----------------------------------------------------|
    |----------------------------------------------------|
    
    
    |----15-18p15----14-19p14----13-16p13----12-17p12--|
    |-17----------16----------15----------14-----------|
    |--------------------------------------------------|
    |--------------------------------------------------|
    |--------------------------------------------------|
    |--------------------------------------------------|
    
    
    |----11-14p11----10-15p10----9-12p11----8-13p8-|
    |-13----------12----------11---------10--------|
    |----------------------------------------------|
    |----------------------------------------------|
    |----------------------------------------------|
    |----------------------------------------------|
    
    
    |----8-11p10---7-12p7---6-9p6---5-10p5-|
    |-10---------9--------8-------7--------|
    |--------------------------------------|
    |--------------------------------------|
    |--------------------------------------|
    |--------------------------------------|
    
    
    |---5-10p5---5h11p5h11p5h11p5h11p5-12-7-|
    |-6--------6----------------------------|
    |---------------------------------------|
    |---------------------------------------|
    |---------------------------------------|
    |---------------------------------------|
    
    
     6/4
    |---7-12-12p7---------------------------------------12-16p12-------|
    |-9-----------9----12h15p12----12h15p12----------12----------12----|
    |---------------10----------------------13----13----------------13-|
    |---------------------------15-------------14----------------------|
    |------------------------------------------------------------------|
    |------------------------------------------------------------------|
    
    
     4/4
    |----------------------------17-15-13-------------|
    |----13-17-13----15-17-15-13----------17-15-13----|
    |-14----------16-------------------------------16-|
    |-------------------------------------------------|
    |-------------------------------------------------|
    |-------------------------------------------------|
    
    
    |----------------------------17-15-----------------|
    |----13-17-13----15-17-15-13-------18-17-15--------|
    |-14----------16----------------------------18-14--|
    |--------------------------------------------------|
    |--------------------------------------------------|
    |--------------------------------------------------|
    
    
    |----15-13-------------------13-12----------------|
    |-15-------17-15-13-------13-------15-13-12-------|
    |-------------------16-12-------------------14-13-|
    |-------------------------------------------------|
    |-------------------------------------------------|
    |-------------------------------------------------|
    
    
    |----12-10------------------10-8--------------|
    |-12-------13-12-10------10------12-10-8------|
    |-------------------13-9-----------------10-9-|
    |---------------------------------------------|
    |---------------------------------------------|
    |---------------------------------------------|
    
    
    |---11-8--------------12-8--------------|
    |--------10----------------10-----------|
    |-8---------11-8--------------9---------|
    |----------------10-7-----------10------|
    |----------------------------------12-8-|
    |---------------------------------------|
    
    
    |-13-10----------------------17-16-15-14-13-12----|
    |-------12-------------------------------------16-|
    |----------13-10----------------------------------|
    |----------------12-------------------------------|
    |-------------------14-11-12----------------------|
    |-------------------------------------------------|
    
    
    |-------------------------------------------------|
    |-15-14-13-12-11----------------------------------|
    |----------------14-13-12-11----------------------|
    |----------------------------15-14-13-12----------|
    |----------------------------------------16-15-14-|
    |-------------------------------------------------|
    
    
    |-------------------------------------------------|
    |-------------------------------------------------|
    |-------------------------------------------------|
    |-------15-14-------12----------14-12----15-------|
    |-12-15-------11-14----14-12-15-------15----11-14-|
    |-------------------------------------------------|
    
    
    |-------------------------------------------------|
    |-------------------------------------------------|
    |-------------------------------------------------|
    |----------12----14----------------12----14-------|
    |-12-15-14----15----11-14-12-15-14----15----11-14-|
    |-------------------------------------------------|
    
    
                               ~~~~~~~~~~~~
    |-------------------------------|---------|
    |-------------------------------|---------|
    |-------------------------------|---------|
    |----------12----14-------------|---------|
    |-12-15-14----15----11-14-12----|-(12)----|
    |-------------------------------|---------|
    
    
    |----------------------------8-12p8---------12S17-(17)--|
    |-------------------------10--------10---10-------------|
    |-------9-14p9----------9--------------9----------------|
    |----10--------10----10---------------------------------|
    |-12--------------12------------------------------------|
    |-------------------------------------------------------|
    
    
    |-15-13-12-10h12h13p12p10h12p10----10---------------------------------------|
    |-------------------------------13----13-12-10------------------------------|
    |----------------------------------------------12-10-9-10-------------------|
    |---------------------------------------------------------12-10-9S7---------|
    |-------------------------------------------------------------------10h12p==|
    |---------------------------------------------------------------------------|
    
    
    |---------------------------------------------------|
    |------------------------------------5-10p5-------5-|
    |----------------------------------5--------5---5---|
    |--------------------------------7------------5-----|
    |-10p8h10p8p7h8p7--------------7--------------------|
    |-----------------10-8-7-5-5h8----------------------|
    
    
    |-12p8---------8-17p12----------12-19b20--17-19p17----17--|
    |------10---10---------13----13--------------------20-----|
    |---------9---------------14------------------------------|
    |---------------------------------------------------------|
    |---------------------------------------------------------|
    |---------------------------------------------------------|
    
    
    |----------------------------------------------------------------------------|
    |-18-20-18-17----------------------------------------------------------------|
    |-------------19-17-16S14S12-14-12----12-------------------------------------|
    |----------------------------------15----14-15-14-12-------------------------|
    |----------------------------------------------------14-15-14-12-14-12S10----|
    |-------------------------------------------------------------------------13-|
    
    
    |------------------------------------------12p8---------8-|
    |---------------------------5-10p5-------5------10---10---|
    |-------------------------5--------5---5-----------9------|
    |-----------------------7------------5--------------------|
    |---------------------7-----------------------------------|
    |-10h12p10-10-8-7-5h8-------------------------------------|
    
    
                                           ~~~~~
    |-17p12----------12-20p17----------17-22b24----|
    |-------13----13----------17----17-------------|
    |----------14----------------17----------------|
    |----------------------------------------------|
    |----------------------------------------------|
    |----------------------------------------------|
    
    
    |-20p19p17h19p17----17-------17----------------------------------------------|
    |----------------20----20p18----20-18-17-20-18-17S15-15-18-15----------------|
    |-------------------------------------------------------------17-16-14-------|
    |----------------------------------------------------------------------15-16-|
    |----------------------------------------------------------------------------|
    |----------------------------------------------------------------------------|
    
    
    |---------------------------------------------------------------------|
    |---------------------------------------------------------------------|
    |---------------------------------------------------------------------|
    |-15-14-13-15-12-13-------------------11h15p11S10---------------------|
    |-------------------15p14h15p14p12----------------12-10-8-------------|
    |----------------------------------15---------------------12-10-8-7-5-|
    
    
    |----------------------------8-12p8---------8-15b17===|
    |-------------------------10--------10---10-----------|
    |---------5-9p5-------5-9--------------9--------------|
    |-------7-------7---7---------------------------------|
    |-----7-----------7-----------------------------------|
    |-5h8-------------------------------------------------|
    
    
    |-(15)r-15p13p12----13-15-17-12-13----12-------------------12-|
    |----------------15----------------15----15p13h15-12h13h15----|
    |-------------------------------------------------------------|
    |-------------------------------------------------------------|
    |-------------------------------------------------------------|
    |-------------------------------------------------------------|
    
    
    |-13-12-10-12-10----10-----------------------------------------------------|
    |----------------13----13-12-10--------------------------------------------|
    |-------------------------------12-10-9------------------------------------|
    |---------------------------------------12-10-9--------------------9h10p===|
    |-----------------------------------------------12-10-8----8-10-12---------|
    |-------------------------------------------------------12-----------------|
    
    
    |-----------------------------------------------------|
    |-----------------------------------------------------|
    |-----------------------------------------------------|
    |-9---------------------------------------------------|
    |---12-10-8-----------------------------------5-6-7-8-|
    |-----------12-10-8h10p8h10p8S5-6-7-8-6-7-8-9---------|
    
    
    |---------------------------------------------------|
    |-----------------3-4-5-6-7-6-5-4-------------------|
    |---------3-4-5-6-----------------7-6-5-4-----------|
    |-4-5-6-7---------------------------------8-7-6-5---|
    |---------------------------------------------------|
    |---------------------------------------------------|
    
    
                                                                            \1.5
                                                                      ~~
    |-----------------------------------------------|-12p8---------8-15----12-----|
    |--------------------------------5-10p5-------5-|------10---10----------------|
    |------------------------------5--------5---5---|---------9-------------------|
    |----------------------------7------------5-----|-----------------------------|
    |-9-8-7-6------------------7--------------------|-----------------------------|
    |---------10-9-8-7-6-5-5h8----------------------|-----------------------------|
    
    
       \1.5  \1.5  \1.5  \1.5    \1.5  \1.5
    |--------------------------|------------------*|
    |-10-----------------------|------------------*|
    |--------9-----------------|-------------2----*|
    |--------------7-----------|-------------2----*|
    |--------------------7-----|-------------0----*|
    |--------------------------|-5-----0----------*|
    yes it took a long time to learn, even though when played at full speed this whole thing lasts less than two minutes

    - but once it's burned into your muscle memory you can do it with your eyes closed

  3. #3
    Banned
    Join Date
    Aug 2008
    Location
    Point Lookout, NY
    Posts
    1,210
    Mentioned
    0 Post(s)
    Tagged
    0 Thread(s)
    If you want to post Damien Rice , post it right.... I hate Internet tabs, they are rarely correct.

  4. #4
    WTF is that smell? crackerjab's Avatar
    Join Date
    Dec 2005
    Location
    Charlotte, NC
    Posts
    449
    Mentioned
    0 Post(s)
    Tagged
    0 Thread(s)
    Quote Originally Posted by MadeInItaly View Post
    If you want to post Damien Rice , post it right.... I hate Internet tabs, they are rarely correct.
    Actually I picked it up by playing it and listening to it. That was the most popular tab for the song so I used it.

    I've seen pics of you guitar collection in other posts. Frankly, I'm jealous.

  5. #5
    Banned
    Join Date
    Aug 2008
    Location
    Point Lookout, NY
    Posts
    1,210
    Mentioned
    0 Post(s)
    Tagged
    0 Thread(s)
    I'm a huge DR fan... Many shows up close . Some with a pen and paper to write down chords and fills...

  6. #6
    Spelling Snob Hobartlemagne's Avatar
    Join Date
    Dec 2005
    Location
    Plano, Texas
    My Bikes
    Panasonic DX4000, Bianchi Pista
    Posts
    2,863
    Mentioned
    0 Post(s)
    Tagged
    0 Thread(s)
    Quote Originally Posted by Harun View Post
    5TH CAPRICCIO
    As recorded by Jason Becker
    (From the 2003 Album THE LEGENDARY GUITAR OF (VIDEO))
    There's a great album of all 24 Paganini Caprices by classical guitarist Elliot Fisk.
    Its very impressive.

    Here's him playing #1:
    [ame="http://www.youtube.com/watch?v=fUUFiIpTvvo"]YouTube - Eliot Fisk plays Paganini Capricho 1[/ame]

    The first rule of flats is You don't talk about flats!

Posting Permissions

  • You may not post new threads
  • You may not post replies
  • You may not post attachments
  • You may not edit your posts
  •